  0
SECTION
  2
HEADER
  9
$ACADVER
  1
AC1009
  9
$INSBASE
 10
   0.0000
 20
   0.0000
 30
    0.0
  9
$EXTMIN
 10
 -52.9000
 20
-141.0000
 30
   0.0000
  9
$EXTMAX
 10
2183.4733
 20
1316.2250
 30
   0.0000
  9
$LTSCALE
 40
1.00
  9
$PSLTSCALE
 70
1
  0
ENDSEC
  0
SECTION
  2
TABLES
  0
TABLE
  2
LTYPE
 70
  5
  0
LTYPE
  2
AUSGEZOGEN
 70
 64
  3
AUSGEZOGEN
 72
 65
 73
  0
 40
0.0
  0
LTYPE
  2
PUNKTIERT
 70
 64
  3
Gepunktet
 72
 65
 73
  2
 40
3.0000
 49
0.0
 49
-3.0000
  0
LTYPE
  2
STRICHLIERT
 70
 64
  3
Strichliert
 72
 65
 73
  2
 40
8.0000
 49
5.0000
 49
-3.0000
  0
LTYPE
  2
STRICHPUNKT
 70
 64
  3
Strichpunktet
 72
 65
 73
  4
 40
16.0000
 49
10.0000
 49
-3.0000
 49
0.0
 49
-3.0000
  0
LTYPE
  2
STRICHPUNKTPUNKT
 70
 64
  3
Strichpunktpunktet
 72
 65
 73
  6
 40
19.0000
 49
10.0000
 49
-3.0000
 49
0.0
 49
-3.0000
 49
0.0
 49
-3.0000
  0
ENDTAB
  0
TABLE
  2
LAYER
 70
7
  0
LAYER
  2
550
 70
  0
 62
  2
  6
AUSGEZOGEN
  0
LAYER
  2
510
 70
  0
 62
  2
  6
AUSGEZOGEN
  0
LAYER
  2
0
 70
  0
 62
  1
  6
AUSGEZOGEN
  0
LAYER
  2
200
 70
  0
 62
  7
  6
AUSGEZOGEN
  0
LAYER
  2
400
 70
  0
 62
  4
  6
AUSGEZOGEN
  0
LAYER
  2
410
 70
  0
 62
  6
  6
AUSGEZOGEN
  0
LAYER
  2
420
 70
  0
 62
  2
  6
AUSGEZOGEN
  0
ENDTAB
  0
TABLE
  2
STYLE
 70
  1
  0
STYLE
  2
STANDARD
 70
 64
 40
0.0
 41
1.0
 50
0.0
 71
  0
 42
30.0
  3
TXT8.SHX
  4

  0
ENDTAB
  0
ENDSEC
  0
SECTION
  2
ENTITIES
  0
TEXT
  8
400
 10
 661.2500
 20
 795.0000
 40
  40.5000
  1
EZ: 230V 50Hz 0,33KW (OKFF 230mm)
 50
   0.0000
 41
   0.8000
  7
STANDARD
  0
LINE
  8
400
  6
AUSGEZOGEN
 10
 647.7500
 20
 781.5000
 11
 229.0000
 21
 230.0000
  0
LINE
  8
400
  6
AUSGEZOGEN
 10
1462.5700
 20
 781.5000
 11
 647.7500
 21
 781.5000
  0
LINE
  8
400
  6
AUSGEZOGEN
 10
 229.0000
 20
 230.0000
 11
 229.0000
 21
 305.0000
  0
LINE
  8
400
  6
AUSGEZOGEN
 10
 229.0000
 20
 155.0000
 11
 229.0000
 21
 230.0000
  0
LINE
  8
400
  6
AUSGEZOGEN
 10
 304.0000
 20
 230.0000
 11
 229.0000
 21
 230.0000
  0
LINE
  8
400
  6
AUSGEZOGEN
 10
 154.0000
 20
 230.0000
 11
 229.0000
 21
 230.0000
  0
CIRCLE
  8
400
  6
AUSGEZOGEN
 10
 229.0000
 20
 230.0000
 40
  50.0000
  0
TEXT
  8
410
 10
 661.2500
 20
 555.0000
 40
  40.5000
  1
TWk: DN20   (OKFF 53mm)
 50
   0.0000
 41
   0.8000
  7
STANDARD
  0
LINE
  8
410
  6
AUSGEZOGEN
 10
 647.7500
 20
 541.5000
 11
 229.0000
 21
  53.0000
  0
LINE
  8
410
  6
AUSGEZOGEN
 10
1210.5700
 20
 541.5000
 11
 647.7500
 21
 541.5000
  0
LINE
  8
410
  6
AUSGEZOGEN
 10
 229.0000
 20
  53.0000
 11
 229.0000
 21
 128.0000
  0
LINE
  8
410
  6
AUSGEZOGEN
 10
 229.0000
 20
 -22.0000
 11
 229.0000
 21
  53.0000
  0
LINE
  8
410
  6
AUSGEZOGEN
 10
 304.0000
 20
  53.0000
 11
 229.0000
 21
  53.0000
  0
LINE
  8
410
  6
AUSGEZOGEN
 10
 154.0000
 20
  53.0000
 11
 229.0000
 21
  53.0000
  0
CIRCLE
  8
410
  6
AUSGEZOGEN
 10
 229.0000
 20
  53.0000
 40
  50.0000
  0
TEXT
  8
420
 10
 661.2500
 20
 675.0000
 40
  40.5000
  1
A: DN20   (OKFF 188mm)
 50
   0.0000
 41
   0.8000
  7
STANDARD
  0
LINE
  8
420
  6
AUSGEZOGEN
 10
 647.7500
 20
 661.5000
 11
 472.0000
 21
 188.0000
  0
LINE
  8
420
  6
AUSGEZOGEN
 10
1165.5700
 20
 661.5000
 11
 647.7500
 21
 661.5000
  0
LINE
  8
420
  6
AUSGEZOGEN
 10
 472.0000
 20
 188.0000
 11
 472.0000
 21
 263.0000
  0
LINE
  8
420
  6
AUSGEZOGEN
 10
 472.0000
 20
 113.0000
 11
 472.0000
 21
 188.0000
  0
LINE
  8
420
  6
AUSGEZOGEN
 10
 547.0000
 20
 188.0000
 11
 472.0000
 21
 188.0000
  0
LINE
  8
420
  6
AUSGEZOGEN
 10
 397.0000
 20
 188.0000
 11
 472.0000
 21
 188.0000
  0
CIRCLE
  8
420
  6
AUSGEZOGEN
 10
 472.0000
 20
 188.0000
 40
  50.0000
  0
LINE
  8
200
  6
AUSGEZOGEN
 10
  20.0000
 20
 545.0000
 11
 509.0000
 21
 545.0000
  0
LINE
  8
200
  6
AUSGEZOGEN
 10
 509.0000
 20
 645.0000
 11
  20.0000
 21
 645.0000
  0
LINE
  8
200
  6
AUSGEZOGEN
 10
 289.0000
 20
 380.0000
 11
 479.0000
 21
 380.0000
  0
LINE
  8
200
  6
AUSGEZOGEN
 10
 479.0000
 20
 360.0000
 11
 289.0000
 21
 360.0000
  0
LINE
  8
200
  6
AUSGEZOGEN
 10
 289.0000
 20
 340.0000
 11
 479.0000
 21
 340.0000
  0
LINE
  8
200
  6
AUSGEZOGEN
 10
 479.0000
 20
 320.0000
 11
 289.0000
 21
 320.0000
  0
LINE
  8
200
  6
AUSGEZOGEN
 10
 289.0000
 20
 300.0000
 11
 479.0000
 21
 300.0000
  0
LINE
  8
200
  6
AUSGEZOGEN
 10
 479.0000
 20
 280.0000
 11
 289.0000
 21
 280.0000
  0
LINE
  8
200
  6
AUSGEZOGEN
 10
 289.0000
 20
 260.0000
 11
 479.0000
 21
 260.0000
  0
LINE
  8
200
  6
AUSGEZOGEN
 10
 479.0000
 20
 240.0000
 11
 289.0000
 21
 240.0000
  0
LINE
  8
200
  6
AUSGEZOGEN
 10
 289.0000
 20
 220.0000
 11
 479.0000
 21
 220.0000
  0
LINE
  8
200
  6
AUSGEZOGEN
 10
 479.0000
 20
 200.0000
 11
 289.0000
 21
 200.0000
  0
LINE
  8
200
  6
AUSGEZOGEN
 10
 289.0000
 20
 180.0000
 11
 479.0000
 21
 180.0000
  0
LINE
  8
200
  6
AUSGEZOGEN
 10
 479.0000
 20
 160.0000
 11
 289.0000
 21
 160.0000
  0
LINE
  8
200
  6
AUSGEZOGEN
 10
  50.0000
 20
 380.0000
 11
 240.0000
 21
 380.0000
  0
LINE
  8
200
  6
AUSGEZOGEN
 10
 240.0000
 20
 360.0000
 11
  50.0000
 21
 360.0000
  0
LINE
  8
200
  6
AUSGEZOGEN
 10
  50.0000
 20
 340.0000
 11
 240.0000
 21
 340.0000
  0
LINE
  8
200
  6
AUSGEZOGEN
 10
 240.0000
 20
 320.0000
 11
  50.0000
 21
 320.0000
  0
LINE
  8
200
  6
AUSGEZOGEN
 10
  50.0000
 20
 300.0000
 11
 240.0000
 21
 300.0000
  0
LINE
  8
200
  6
AUSGEZOGEN
 10
 240.0000
 20
 280.0000
 11
  50.0000
 21
 280.0000
  0
LINE
  8
200
  6
AUSGEZOGEN
 10
  50.0000
 20
 260.0000
 11
 240.0000
 21
 260.0000
  0
LINE
  8
200
  6
AUSGEZOGEN
 10
 240.0000
 20
 240.0000
 11
  50.0000
 21
 240.0000
  0
LINE
  8
200
  6
AUSGEZOGEN
 10
  50.0000
 20
 220.0000
 11
 240.0000
 21
 220.0000
  0
LINE
  8
200
  6
AUSGEZOGEN
 10
 240.0000
 20
 200.0000
 11
  50.0000
 21
 200.0000
  0
LINE
  8
200
  6
AUSGEZOGEN
 10
  50.0000
 20
 180.0000
 11
 240.0000
 21
 180.0000
  0
LINE
  8
200
  6
AUSGEZOGEN
 10
 240.0000
 20
 160.0000
 11
  50.0000
 21
 160.0000
  0
LINE
  8
200
  6
AUSGEZOGEN
 10
 509.0000
 20
 895.0000
 11
 509.0000
 21
 130.0000
  0
LINE
  8
200
  6
AUSGEZOGEN
 10
   0.0000
 20
 895.0000
 11
 529.0000
 21
 895.0000
  0
LINE
  8
200
  6
AUSGEZOGEN
 10
  20.0000
 20
 130.0000
 11
  20.0000
 21
 895.0000
  0
LINE
  8
200
  6
AUSGEZOGEN
 10
   0.0000
 20
 915.0000
 11
   0.0000
 21
 130.0000
  0
LINE
  8
200
  6
AUSGEZOGEN
 10
 529.0000
 20
 915.0000
 11
   0.0000
 21
 915.0000
  0
LINE
  8
200
  6
AUSGEZOGEN
 10
 529.0000
 20
 130.0000
 11
 529.0000
 21
 915.0000
  0
LINE
  8
200
  6
AUSGEZOGEN
 10
 447.0000
 20
   0.0000
 11
 447.0000
 21
 130.0000
  0
LINE
  8
200
  6
AUSGEZOGEN
 10
 489.0000
 20
 130.0000
 11
 489.0000
 21
   0.0000
  0
LINE
  8
200
  6
AUSGEZOGEN
 10
 447.0000
 20
   0.0000
 11
 489.0000
 21
   0.0000
  0
LINE
  8
200
  6
AUSGEZOGEN
 10
  39.0000
 20
 130.0000
 11
  39.0000
 21
   0.0000
  0
LINE
  8
200
  6
AUSGEZOGEN
 10
 529.0000
 20
 130.0000
 11
   0.0000
 21
 130.0000
  0
LINE
  8
200
  6
AUSGEZOGEN
 10
  81.0000
 20
   0.0000
 11
  81.0000
 21
 130.0000
  0
LINE
  8
200
  6
AUSGEZOGEN
 10
  39.0000
 20
   0.0000
 11
  81.0000
 21
   0.0000
  0
ATTDEF
  8
550
 10
10.0
 20
100.0
 30
0.0
 40
30
  1
NOR-41320750600
  2
NO00060V
  3
HKI-Nummer
 70
1
  0
TEXT
  8
510
 10
10.0
 20
-45.0
 30
0.0
 40
30
  1
NOR-41320750600
 50
0.0
 41
1.0
  7
STANDARD
  0
ENDSEC
  0
EOF
